小白的窩

Easy like Sunday morning

攻略Heartbreak Station

今天終於走順了費城重搖滾名團Cinderella的Heartbreak Station,真是蠻爽的~
那段簡單卻感傷的12弦木吉他前奏,著實讓我指頭上的繭又厚了不少…



Acoustic 12 string guitar:
Play twice
G                 Cs2               D/F#
  +   +   +   +     +   +   +   +     +   +   +   +
+-----------------+-----------------+---------------+
|-----------------|-----------------|---------------|
|-----0---0-------|-----0---0-------|-----2-------2-|
|---0---0---0-----|---0---0---0-----|---------0-----|
|-------------0-2-|-3---------------|---0---0---0---|
+-3---------------+-------------0-3-+-2-------------+

Cs2      G/B      NC
  +     +     +     +
+-------------------------+
|-------------------------|
|-------0--------0--------|
|----0--------0--------0--|
|-3--------2--------0h2---|
+-------------------------+

這真是一首令人心碎的歌,有過沒有結果愛情的人聽著很難不被感動,不論歌詞或音樂…

The days turn into years
Funny how they fade away

She took the last train, out of my heart
She took the last train, now I think I’ll make a brand new start

廣告

七月 26, 2005 - Posted by | 音樂

仍無迴響。

發表迴響

在下方填入你的資料或按右方圖示以社群網站登入:

WordPress.com Logo

您的留言將使用 WordPress.com 帳號。 登出 / 變更 )

Twitter picture

您的留言將使用 Twitter 帳號。 登出 / 變更 )

Facebook照片

您的留言將使用 Facebook 帳號。 登出 / 變更 )

Google+ photo

您的留言將使用 Google+ 帳號。 登出 / 變更 )

連結到 %s

%d 位部落客按了讚: